  0
SECTION
  2
HEADER
  9
$ACADVER
  1
AC1009
  9
$INSBASE
 10
0.0
 20
0.0
 30
0.0
  9
$EXTMIN
 10
-1.0564043136735459
 20
1.8115175227032749
 30
0.0
  9
$EXTMAX
 10
6.3953351133387324
 20
18.52636616094583
 30
0.0
  9
$LIMMIN
 10
0.0
 20
0.0
  9
$LIMMAX
 10
12.0
 20
9.0
  9
$ORTHOMODE
 70
     0
  9
$REGENMODE
 70
     1
  9
$FILLMODE
 70
     1
  9
$QTEXTMODE
 70
     0
  9
$MIRRTEXT
 70
     1
  9
$DRAGMODE
 70
     2
  9
$LTSCALE
 40
0.6
  9
$OSMODE
 70
   111
  9
$ATTMODE
 70
     1
  9
$TEXTSIZE
 40
0.2
  9
$TRACEWID
 40
0.05
  9
$TEXTSTYLE
  7
ARIAL
  9
$CLAYER
  8
2-7
  9
$CELTYPE
  6
BYLAYER
  9
$CECOLOR
 62
   256
  9
$DIMSCALE
 40
1.0
  9
$DIMASZ
 40
0.125
  9
$DIMEXO
 40
0.0625
  9
$DIMDLI
 40
0.25
  9
$DIMRND
 40
0.0
  9
$DIMDLE
 40
0.0
  9
$DIMEXE
 40
0.0625
  9
$DIMTP
 40
0.0
  9
$DIMTM
 40
0.0
  9
$DIMTXT
 40
0.125
  9
$DIMCEN
 40
0.09
  9
$DIMTSZ
 40
0.0
  9
$DIMTOL
 70
     0
  9
$DIMLIM
 70
     0
  9
$DIMTIH
 70
     1
  9
$DIMTOH
 70
     1
  9
$DIMSE1
 70
     0
  9
$DIMSE2
 70
     0
  9
$DIMTAD
 70
     0
  9
$DIMZIN
 70
     4
  9
$DIMBLK
  1

  9
$DIMASO
 70
     1
  9
$DIMSHO
 70
     1
  9
$DIMPOST
  1

  9
$DIMAPOST
  1

  9
$DIMALT
 70
     0
  9
$DIMALTD
 70
     2
  9
$DIMALTF
 40
25.399999999999999
  9
$DIMLFAC
 40
1.0
  9
$DIMTOFL
 70
     0
  9
$DIMTVP
 40
0.0
  9
$DIMTIX
 70
     0
  9
$DIMSOXD
 70
     0
  9
$DIMSAH
 70
     0
  9
$DIMBLK1
  1

  9
$DIMBLK2
  1

  9
$DIMSTYLE
  2
STANDARD
  9
$DIMCLRD
 70
   256
  9
$DIMCLRE
 70
   256
  9
$DIMCLRT
 70
   256
  9
$DIMTFAC
 40
1.0
  9
$DIMGAP
 40
0.09
  9
$LUNITS
 70
     2
  9
$LUPREC
 70
     4
  9
$SKETCHINC
 40
0.1
  9
$FILLETRAD
 40
0.5
  9
$AUNITS
 70
     0
  9
$AUPREC
 70
     0
  9
$MENU
  1
.
  9
$ELEVATION
 40
0.0
  9
$PELEVATION
 40
0.0
  9
$THICKNESS
 40
0.0
  9
$LIMCHECK
 70
     0
  9
$BLIPMODE
 70
     0
  9
$CHAMFERA
 40
0.0
  9
$CHAMFERB
 40
0.0
  9
$SKPOLY
 70
     0
  9
$TDCREATE
 40
2452392.3517971062
  9
$TDUPDATE
 40
2452554.4591662032
  9
$TDINDWG
 40
0.1691494213
  9
$TDUSRTIMER
 40
0.169146875
  9
$USRTIMER
 70
     1
  9
$ANGBASE
 50
0.0
  9
$ANGDIR
 70
     0
  9
$PDMODE
 70
     3
  9
$PDSIZE
 40
0.0
  9
$PLINEWID
 40
0.0
  9
$COORDS
 70
     2
  9
$SPLFRAME
 70
     0
  9
$SPLINETYPE
 70
     6
  9
$SPLINESEGS
 70
     8
  9
$ATTDIA
 70
     0
  9
$ATTREQ
 70
     1
  9
$HANDLING
 70
  4097
  9
$HANDSEED
  5
ED1
  9
$SURFTAB1
 70
     6
  9
$SURFTAB2
 70
     6
  9
$SURFTYPE
 70
     6
  9
$SURFU
 70
     6
  9
$SURFV
 70
     6
  9
$UCSNAME
  2

  9
$UCSORG
 10
0.0
 20
0.0
 30
0.0
  9
$UCSXDIR
 10
1.0
 20
0.0
 30
0.0
  9
$UCSYDIR
 10
0.0
 20
1.0
 30
0.0
  9
$PUCSNAME
  2

  9
$PUCSORG
 10
0.0
 20
0.0
 30
0.0
  9
$PUCSXDIR
 10
1.0
 20
0.0
 30
0.0
  9
$PUCSYDIR
 10
0.0
 20
1.0
 30
0.0
  9
$USERI1
 70
     0
  9
$USERI2
 70
     0
  9
$USERI3
 70
     0
  9
$USERI4
 70
     0
  9
$USERI5
 70
     0
  9
$USERR1
 40
1.0
  9
$USERR2
 40
25.399999999999999
  9
$USERR3
 40
0.0
  9
$USERR4
 40
0.0
  9
$USERR5
 40
0.0
  9
$WORLDVIEW
 70
     1
  9
$SHADEDGE
 70
     3
  9
$SHADEDIF
 70
    70
  9
$TILEMODE
 70
     1
  9
$MAXACTVP
 70
    48
  9
$PLIMCHECK
 70
     0
  9
$PEXTMIN
 10
1.0000000000000000E+020
 20
1.0000000000000000E+020
 30
1.0000000000000000E+020
  9
$PEXTMAX
 10
-1.0000000000000000E+020
 20
-1.0000000000000000E+020
 30
-1.0000000000000000E+020
  9
$PLIMMIN
 10
0.0
 20
0.0
  9
$PLIMMAX
 10
12.0
 20
9.0
  9
$UNITMODE
 70
     0
  9
$VISRETAIN
 70
     1
  9
$PLINEGEN
 70
     0
  9
$PSLTSCALE
 70
     1
  0
ENDSEC
  0
SECTION
  2
TABLES
  0
TABLE
  2
VPORT
 70
     2
  0
VPORT
  2
*ACTIVE
 70
     0
 10
0.0
 20
0.0
 11
1.0
 21
1.0
 12
2.6695510325754142
 22
10.168430857325649
 13
0.0
 23
0.0
 14
0.5
 24
0.5
 15
0.5
 25
0.5
 16
0.0
 26
0.0
 36
1.0
 17
0.0
 27
0.0
 37
0.0
 40
17.170602549312871
 41
1.3665594855305461
 42
50.0
 43
0.0
 44
0.0
 50
0.0
 51
0.0
 71
     0
 72
   100
 73
     1
 74
     2
 75
     0
 76
     0
 77
     0
 78
     0
  0
ENDTAB
  0
TABLE
  2
LTYPE
 70
     3
  0
LTYPE
  2
CONTINUOUS
 70
     0
  3
Solid line
 72
    65
 73
     0
 40
0.0
  0
LTYPE
  2
CENTER
 70
     0
  3
Center ____ _ ____ _ ____ _ ____ _ ____ _ ____
 72
    65
 73
     4
 40
2.0
 49
1.25
 49
-0.25
 49
0.25
 49
-0.25
  0
LTYPE
  2
HIDDEN
 70
     0
  3
Hidden __ __ __ __ __ __ __ __ __ __ __ __ __ _
 72
    65
 73
     2
 40
0.375
 49
0.25
 49
-0.125
  0
ENDTAB
  0
TABLE
  2
LAYER
 70
     6
  0
LAYER
  2
0
 70
     0
 62
     7
  6
CONTINUOUS
  0
LAYER
  2
CENTERLINE
 70
     0
 62
     1
  6
CENTER
  0
LAYER
  2
2-7
 70
     0
 62
     2
  6
CONTINUOUS
  0
LAYER
  2
ADAPTER
 70
     0
 62
     3
  6
CONTINUOUS
  0
LAYER
  2
DRIVE_TANG
 70
     0
 62
     4
  6
CONTINUOUS
  0
LAYER
  2
DRIVE_INPUT
 70
     0
 62
     7
  6
CONTINUOUS
  0
ENDTAB
  0
TABLE
  2
STYLE
 70
     2
  0
STYLE
  2
STANDARD
 70
     0
 40
0.0
 41
1.0
 50
0.0
 71
     0
 42
0.2
  3
txt
  4

  0
STYLE
  2
ARIAL
 70
     0
 40
0.0
 41
1.0
 50
0.0
 71
     0
 42
0.2
  3
txt
  4

  0
ENDTAB
  0
TABLE
  2
VIEW
 70
     0
  0
ENDTAB
  0
TABLE
  2
UCS
 70
     0
  0
ENDTAB
  0
TABLE
  2
APPID
 70
     1
  0
APPID
  2
ACAD
 70
     0
  0
ENDTAB
  0
TABLE
  2
DIMSTYLE
 70
     1
  0
DIMSTYLE
  2
STANDARD
 70
     0
  3

  4

  5

  6

  7

 40
1.0
 41
0.125
 42
0.0625
 43
0.25
 44
0.0625
 45
0.0
 46
0.0
 47
0.0
 48
0.0
140
0.125
141
0.09
142
0.0
143
25.399999999999999
144
1.0
145
0.0
146
1.0
147
0.09
 71
     0
 72
     0
 73
     1
 74
     1
 75
     0
 76
     0
 77
     0
 78
     4
170
     0
171
     2
172
     0
173
     0
174
     0
175
     0
176
   256
177
   256
178
   256
  0
ENDTAB
  0
ENDSEC
  0
SECTION
  2
BLOCKS
  0
BLOCK
  8
0
  2
$MODEL_SPACE
 70
     0
 10
0.0
 20
0.0
 30
0.0
  3
$MODEL_SPACE
  1

  0
ENDBLK
  5
21
  8
0
  0
BLOCK
 67
     1
  8
0
  2
$PAPER_SPACE
 70
     0
 10
0.0
 20
0.0
 30
0.0
  3
$PAPER_SPACE
  1

  0
ENDBLK
  5
1D
 67
     1
  8
0
  0
ENDSEC
  0
SECTION
  2
ENTITIES
  0
LINE
  5
CE
  8
2-7
 10
0.1802530165032024
 20
4.1831711419032764
 30
0.0
 11
5.28697950428736
 21
4.1831711419032764
 31
0.0
  0
LINE
  5
CF
  8
2-7
 10
0.1802530165032024
 20
7.3233287227032813
 30
0.0
 11
5.2869795042873591
 21
7.3233287227032768
 31
0.0
  0
LINE
  5
D1
  8
2-7
 10
4.8837270741241028
 20
3.3863207227032759
 30
0.0
 11
4.8837270741241028
 21
4.1831711419032764
 31
0.0
  0
LINE
  5
D2
  8
2-7
 10
2.7656167701241028
 20
3.3863207227032759
 30
0.0
 11
2.7656167701241028
 21
4.1831711419032764
 31
0.0
  0
LINE
  5
D3
  8
2-7
 10
2.7656167701241028
 20
3.3863207227032759
 30
0.0
 11
4.8837270741241028
 21
3.3863207227032759
 31
0.0
  0
ARC
  5
12A
  8
2-7
 10
3.8246719221241028
 20
3.1135188767032749
 30
0.0
 40
0.2567257299999997
 50
184.5812200852769
 51
355.41877991472302
  0
LINE
  5
12B
  8
2-7
 10
3.498573338119864
 20
3.3725411947032762
 30
0.0
 11
4.1507705061283433
 21
3.3725411947032762
 31
0.0
  0
LINE
  5
12C
  8
2-7
 10
4.1428964901283418
 20
3.0930136267032751
 30
0.0
 11
3.5064473541198642
 21
3.093013626703276
 31
0.0
  0
LINE
  5
12D
  8
2-7
 10
3.498573338119864
 20
3.3725411947032762
 30
0.0
 11
3.498573338119864
 21
3.3863207227032759
 31
0.0
  0
LINE
  5
12E
  8
2-7
 10
3.5064473541198642
 20
3.093013626703276
 30
0.0
 11
3.5064473541198642
 21
3.3725411947032762
 31
0.0
  0
LINE
  5
12F
  8
2-7
 10
3.6655596381219828
 20
3.093013626703276
 30
0.0
 11
3.6655596381219828
 21
3.3725411947032762
 31
0.0
  0
LINE
  5
130
  8
2-7
 10
3.9837842061262232
 20
3.093013626703276
 30
0.0
 11
3.9837842061262232
 21
3.3725411947032762
 31
0.0
  0
LINE
  5
131
  8
2-7
 10
4.1428964901283418
 20
3.0930136267032751
 30
0.0
 11
4.1428964901283418
 21
3.3725411947032762
 31
0.0
  0
LINE
  5
132
  8
2-7
 10
4.1507705061283433
 20
3.3725411947032762
 30
0.0
 11
4.1507705061283433
 21
3.3863207227032759
 31
0.0
  0
LINE
  5
188
  8
2-7
 10
2.8989531024176411
 20
1.8115175227032749
 30
0.0
 11
2.8989531024176411
 21
3.3863207227032759
 31
0.0
  0
LINE
  5
189
  8
2-7
 10
3.522953122385641
 20
1.8115175227032749
 30
0.0
 11
3.522953122385641
 21
3.093013626703276
 31
0.0
  0
LINE
  5
18A
  8
2-7
 10
2.8989531024176411
 20
1.8115175227032749
 30
0.0
 11
3.522953122385641
 21
1.8115175227032749
 31
0.0
  0
LINE
  5
18B
  8
ADAPTER
 10
0.6076319403952802
 20
7.7233287355032774
 30
0.0
 11
4.8596005803952798
 21
7.7233287355032774
 31
0.0
  0
LINE
  5
18C
  8
ADAPTER
 10
0.6076319403952802
 20
7.7233287355032774
 30
0.0
 11
0.6076319403952802
 21
7.3233287227032768
 31
0.0
  0
LINE
  5
1D3
  8
ADAPTER
 10
1.2729862923952799
 20
10.06348629070327
 30
0.0
 11
4.1942462283952811
 21
10.06348629070327
 31
0.0
  0
LINE
  5
1D5
  8
ADAPTER
 10
1.2729862923952799
 20
10.06348629070327
 30
0.0
 11
1.2729862923952799
 21
7.7233287355032774
 31
0.0
  0
LINE
  5
1D6
  8
ADAPTER
 10
4.1942462283952811
 20
10.06348629070327
 30
0.0
 11
4.1942462283952811
 21
9.9650610907032782
 31
0.0
  0
LINE
  5
1D7
  8
ADAPTER
 10
3.6485769195952811
 20
9.9650610907032817
 30
0.0
 11
4.6328289195952808
 21
9.9650610907032764
 31
0.0
  0
LINE
  5
1D8
  8
ADAPTER
 10
4.6328289195952808
 20
9.9650610907032764
 30
0.0
 11
4.6328289195952808
 21
8.636320890703276
 31
0.0
  0
LINE
  5
1D9
  8
ADAPTER
 10
4.6328289195952808
 20
8.636320890703276
 30
0.0
 11
3.6485769195952811
 21
8.636320890703276
 31
0.0
  0
LINE
  5
1DA
  8
ADAPTER
  6
HIDDEN
 10
3.6485769195952811
 20
9.9650610907032764
 30
0.0
 11
3.6485769195952811
 21
8.636320890703276
 31
0.0
  0
LINE
  5
1DB
  8
ADAPTER
 10
4.1942462283952811
 20
8.636320890703276
 30
0.0
 11
4.1942462283952811
 21
7.7233287355032774
 31
0.0
  0
CIRCLE
  5
1DC
  8
ADAPTER
 10
4.3403800913392798
 20
9.3006909907032771
 30
0.0
 40
0.219347573948256
  0
POLYLINE
  5
1DD
  8
ADAPTER
 66
     1
 10
0.0
 20
0.0
 30
0.0
 70
     1
  0
VERTEX
  5
EB5
  8
ADAPTER
 10
4.2039981427153092
 20
9.5369114549552432
 30
0.0
  0
VERTEX
  5
EB6
  8
ADAPTER
 10
4.0676161940913369
 20
9.3006909907032771
 30
0.0
  0
VERTEX
  5
EB7
  8
ADAPTER
 10
4.2039981427153092
 20
9.0644705264513092
 30
0.0
  0
VERTEX
  5
EB8
  8
ADAPTER
 10
4.4767620399632531
 20
9.0644705264513092
 30
0.0
  0
VERTEX
  5
EB9
  8
ADAPTER
 10
4.6131439885872254
 20
9.3006909907032771
 30
0.0
  0
VERTEX
  5
EBA
  8
ADAPTER
 10
4.4767620399632531
 20
9.5369114549552432
 30
0.0
  0
SEQEND
  5
EBB
  8
ADAPTER
  0
LINE
  5
225
  8
ADAPTER
 10
0.6076319403952802
 20
7.323328722703276
 30
0.0
 11
4.8596005803952798
 21
7.323328722703276
 31
0.0
  0
LINE
  5
226
  8
ADAPTER
 10
4.6328289195952816
 20
16.764555080945829
 30
0.0
 11
4.6328289195952816
 21
16.006681040945828
 31
0.0
  0
LINE
  5
270
  8
ADAPTER
 10
4.6328289195952816
 20
16.764555080945829
 30
0.0
 11
3.2900399623952459
 21
17.317804414196281
 31
0.0
  0
LINE
  5
271
  8
ADAPTER
 10
4.0184010243043602
 20
14.916913267126599
 30
0.0
 11
3.2900399623952459
 21
14.61681750769538
 31
0.0
  0
LINE
  5
272
  8
ADAPTER
 10
4.6328289195952816
 20
15.170066840945831
 30
0.0
 11
4.0184010243043602
 21
15.170066840945831
 31
0.0
  0
LINE
  5
273
  8
ADAPTER
 10
4.0184010243043602
 20
15.170066840945831
 30
0.0
 11
4.0184010243043602
 21
14.916913267126599
 31
0.0
  0
LINE
  5
276
  8
ADAPTER
 10
4.6131439885872254
 20
15.111011720945831
 30
0.0
 11
4.6131439885872254
 21
14.8650932824719
 31
0.0
  0
LINE
  5
277
  8
ADAPTER
 10
4.4767620399632531
 20
15.111011720945831
 30
0.0
 11
4.4767620399632531
 21
14.865093282471889
 31
0.0
  0
LINE
  5
278
  8
ADAPTER
 10
4.2039981427153092
 20
15.111011720945831
 30
0.0
 11
4.2039981427153092
 21
14.865093282471889
 31
0.0
  0
LINE
  5
279
  8
ADAPTER
 10
4.067616194091336
 20
15.111011720945831
 30
0.0
 11
4.067616194091336
 21
14.8650932824719
 31
0.0
  0
LINE
  5
27B
  8
ADAPTER
 10
4.0479311540913372
 20
15.111011720945831
 30
0.0
 11
4.6328290285872251
 21
15.111011720945831
 31
0.0
  0
LINE
  5
27C
  8
ADAPTER
 10
4.0479311540913372
 20
15.111011720945831
 30
0.0
 11
4.0479311540913372
 21
15.170066840945831
 31
0.0
  0
LINE
  5
27D
  8
ADAPTER
 10
4.6328290285872251
 20
15.111011720945831
 30
0.0
 11
4.6328290285872251
 21
15.170066840945831
 31
0.0
  0
LINE
  5
27F
  8
ADAPTER
 10
4.1358071684033231
 20
14.82900474215926
 30
0.0
 11
4.5449530142752383
 21
14.82900474215926
 31
0.0
  0
ARC
  5
280
  8
ADAPTER
 10
4.1358071684033231
 20
14.9114740200512
 30
0.0
 40
0.0824692778919425
 50
214.2219499523211
 51
325.77805004767828
  0
ARC
  5
282
  8
ADAPTER
 10
4.5449530142752383
 20
14.9114740200512
 30
0.0
 40
0.0824692778919425
 50
214.22194995232161
 51
325.7780500476789
  0
ARC
  5
283
  8
ADAPTER
 10
4.340380091339286
 20
15.10474904325808
 30
0.0
 40
0.2757443010988207
 50
240.356905410038
 51
299.6430945899599
  0
LINE
  5
36A
  8
DRIVE_INPUT
  6
HIDDEN
 10
2.5367658603952812
 20
7.4020688827032757
 30
0.0
 11
2.5367658603952812
 21
7.7957696827032761
 31
0.0
  0
LINE
  5
36B
  8
DRIVE_INPUT
  6
HIDDEN
 10
2.9304666603952811
 20
7.7957696827032761
 30
0.0
 11
2.9304666603952811
 21
7.4020688827032757
 31
0.0
  0
LINE
  5
36C
  8
DRIVE_INPUT
  6
HIDDEN
 10
2.1824351403952811
 20
7.7957696827032761
 30
0.0
 11
2.1824351403952811
 21
7.3233287227032768
 31
0.0
  0
LINE
  5
36D
  8
DRIVE_INPUT
  6
HIDDEN
 10
3.2847973803952808
 20
7.7957696827032761
 30
0.0
 11
3.2847973803952808
 21
7.3233287227032777
 31
0.0
  0
LINE
  5
36E
  8
DRIVE_INPUT
  6
HIDDEN
 10
2.9304666603952811
 20
7.4020688827032757
 30
0.0
 11
2.5367658603952812
 21
7.4020688827032757
 31
0.0
  0
LINE
  5
36F
  8
DRIVE_INPUT
  6
HIDDEN
 10
2.1824351403952811
 20
7.7957696827032761
 30
0.0
 11
2.5367658603952812
 21
7.7957696827032761
 31
0.0
  0
LINE
  5
370
  8
DRIVE_INPUT
  6
HIDDEN
 10
2.9304666603952811
 20
7.7957696827032761
 30
0.0
 11
3.2847973803952808
 21
7.7957696827032761
 31
0.0
  0
LINE
  5
43C
  8
DRIVE_TANG
  6
HIDDEN
 10
2.191096557995281
 20
8.9871083035032768
 30
0.0
 11
3.2761359627952809
 21
8.9871083035032768
 31
0.0
  0
LINE
  5
43D
  8
DRIVE_TANG
  6
HIDDEN
 10
3.2761359627952809
 20
8.9871083035032768
 30
0.0
 11
3.2761359627952809
 21
7.818998029903276
 31
0.0
  0
LINE
  5
43F
  8
DRIVE_TANG
  6
HIDDEN
 10
2.191096557995281
 20
8.9871083035032768
 30
0.0
 11
2.191096557995281
 21
7.818998029903276
 31
0.0
  0
LINE
  5
440
  8
DRIVE_TANG
  6
HIDDEN
 10
2.191096557995281
 20
7.818998029903276
 30
0.0
 11
2.5367658603952812
 21
7.8189980299032751
 31
0.0
  0
CIRCLE
  5
915
  8
2-7
  6
HIDDEN
 10
1.6425605986664611
 20
15.337389680945829
 30
0.0
 40
0.25590552
  0
POLYLINE
  5
916
  8
2-7
  6
HIDDEN
 66
     1
 10
0.0
 20
0.0
 30
0.0
 70
     1
  0
VERTEX
  5
EBC
  8
2-7
  6
HIDDEN
 10
1.3669700386664621
 20
15.49650196494796
 30
0.0
  0
VERTEX
  5
EBD
  8
2-7
  6
HIDDEN
 10
1.3669700386664621
 20
15.17827739694372
 30
0.0
  0
VERTEX
  5
EBE
  8
2-7
  6
HIDDEN
 10
1.642560598666462
 20
15.01916511294159
 30
0.0
  0
VERTEX
  5
EBF
  8
2-7
  6
HIDDEN
 10
1.9181511586664619
 20
15.17827739694372
 30
0.0
  0
VERTEX
  5
EC0
  8
2-7
  6
HIDDEN
 10
1.9181511586664619
 20
15.49650196494796
 30
0.0
  0
VERTEX
  5
EC1
  8
2-7
  6
HIDDEN
 10
1.642560598666462
 20
15.655614248950069
 30
0.0
  0
SEQEND
  5
EC2
  8
2-7
  6
HIDDEN
  0
CIRCLE
  5
917
  8
2-7
  6
HIDDEN
 10
1.6425605986664611
 20
15.337389680945829
 30
0.0
 40
1.0590551519999989
  0
CIRCLE
  5
919
  8
2-7
  6
HIDDEN
 10
1.0288417889439989
 20
14.983058960945829
 30
0.0
 40
0.312000009984
  0
CIRCLE
  5
91A
  8
2-7
  6
HIDDEN
 10
2.256279408388921
 20
15.69172040094583
 30
0.0
 40
0.312000009984
  0
CIRCLE
  5
91F
  8
CENTERLINE
 10
2.7336162603952809
 20
15.967310960945831
 30
0.0
 40
0.5511811200000001
  0
CIRCLE
  5
920
  8
2-7
  6
HIDDEN
 10
3.8246719221241028
 20
15.337389680945829
 30
0.0
 40
1.0590551519999989
  0
CIRCLE
  5
921
  8
2-7
  6
HIDDEN
 10
4.4383907318465647
 20
14.983058960945829
 30
0.0
 40
0.312000009984
  0
CIRCLE
  5
922
  8
2-7
  6
HIDDEN
 10
3.2109531124016408
 20
15.69172040094583
 30
0.0
 40
0.312000009984
  0
CIRCLE
  5
923
  8
2-7
  6
HIDDEN
 10
3.8246719221241028
 20
15.337389680945829
 30
0.0
 40
0.25590552
  0
POLYLINE
  5
924
  8
2-7
  6
HIDDEN
 66
     1
 10
0.0
 20
0.0
 30
0.0
 70
     1
  0
VERTEX
  5
EC3
  8
2-7
  6
HIDDEN
 10
3.824671922124101
 20
15.01916511294159
 30
0.0
  0
VERTEX
  5
EC4
  8
2-7
  6
HIDDEN
 10
4.100262482124104
 20
15.178277396943709
 30
0.0
  0
VERTEX
  5
EC5
  8
2-7
  6
HIDDEN
 10
4.100262482124104
 20
15.496501964947949
 30
0.0
  0
VERTEX
  5
EC6
  8
2-7
  6
HIDDEN
 10
3.8246719221241028
 20
15.655614248950069
 30
0.0
  0
VERTEX
  5
EC7
  8
2-7
  6
HIDDEN
 10
3.5490813621241011
 20
15.496501964947949
 30
0.0
  0
VERTEX
  5
EC8
  8
2-7
  6
HIDDEN
 10
3.5490813621241011
 20
15.178277396943709
 30
0.0
  0
SEQEND
  5
EC9
  8
2-7
  6
HIDDEN
  0
CIRCLE
  5
925
  8
2-7
  6
HIDDEN
 10
2.733616260395284
 20
17.22715352094583
 30
0.0
 40
1.0590551519999989
  0
CIRCLE
  5
926
  8
2-7
  6
HIDDEN
 10
2.733616260395284
 20
17.93581496094583
 30
0.0
 40
0.312000009984
  0
CIRCLE
  5
927
  8
2-7
  6
HIDDEN
 10
2.7336162603952809
 20
16.51849208094583
 30
0.0
 40
0.312000009984
  0
CIRCLE
  5
928
  8
2-7
  6
HIDDEN
 10
2.733616260395284
 20
17.22715352094583
 30
0.0
 40
0.25590552
  0
POLYLINE
  5
929
  8
2-7
  6
HIDDEN
 66
     1
 10
0.0
 20
0.0
 30
0.0
 70
     1
  0
VERTEX
  5
ECA
  8
2-7
  6
HIDDEN
 10
3.0092068203952831
 20
17.38626580494795
 30
0.0
  0
VERTEX
  5
ECB
  8
2-7
  6
HIDDEN
 10
2.733616260395284
 20
17.54537808895007
 30
0.0
  0
VERTEX
  5
ECC
  8
2-7
  6
HIDDEN
 10
2.4580257003952841
 20
17.38626580494795
 30
0.0
  0
VERTEX
  5
ECD
  8
2-7
  6
HIDDEN
 10
2.458025700395281
 20
17.06804123694371
 30
0.0
  0
VERTEX
  5
ECE
  8
2-7
  6
HIDDEN
 10
2.733616260395284
 20
16.90892895294159
 30
0.0
  0
VERTEX
  5
ECF
  8
2-7
  6
HIDDEN
 10
3.0092068203952809
 20
17.06804123694371
 30
0.0
  0
SEQEND
  5
ED0
  8
2-7
  6
HIDDEN
  0
CIRCLE
  5
92A
  8
CENTERLINE
 10
2.7336162603952809
 20
15.967310960945831
 30
0.0
 40
1.968504
  0
ARC
  5
92F
  8
2-7
 10
2.7336162603952809
 20
15.967310960945831
 30
0.0
 40
2.5590551999999991
 50
183.82216213133009
 51
236.17783786866971
  0
LINE
  5
931
  8
2-7
 10
1.604666645952588
 20
18.263881509545801
 30
0.0
 11
0.180253016503203
 21
15.79672473234587
 31
0.0
  0
LINE
  5
932
  8
2-7
 10
1.3092026309458991
 20
13.84132664094583
 30
0.0
 11
4.158029889844669
 21
13.84132664094583
 31
0.0
  0
LINE
  5
933
  8
2-7
 10
5.2869795042873582
 20
15.79672473234587
 30
0.0
 11
3.862565874837975
 21
18.26388150954579
 31
0.0
  0
ARC
  5
934
  8
2-7
 10
2.7336162603952809
 20
15.967310960945831
 30
0.0
 40
2.5590551999999991
 50
303.82216213133012
 51
356.1778378686696
  0
ARC
  5
935
  8
2-7
 10
2.7336162603952809
 20
15.967310960945831
 30
0.0
 40
2.5590551999999991
 50
63.822162131330138
 51
116.1778378686699
  0
LINE
  5
937
  8
ADAPTER
  6
HIDDEN
 10
3.8143249563952821
 20
10.06348629070327
 30
0.0
 11
3.8143249563952821
 21
7.7233287355032774
 31
0.0
  0
LINE
  5
9C3
  8
2-7
 10
0.1802530165032024
 20
7.3233287227032813
 30
0.0
 11
0.1802530165032024
 21
4.1831711419032764
 31
0.0
  0
LINE
  5
9C4
  8
2-7
 10
1.309202630945892
 20
7.3233287227032804
 30
0.0
 11
1.309202630945892
 21
4.1831711419032747
 31
0.0
  0
LINE
  5
9C6
  8
2-7
 10
5.2869795042873591
 20
7.3233287227032768
 30
0.0
 11
5.28697950428736
 21
4.1831711419032764
 31
0.0
  0
LINE
  5
9C7
  8
2-7
 10
4.158029889844669
 20
7.3233287227032804
 30
0.0
 11
4.158029889844669
 21
4.1831711419032747
 31
0.0
  0
LINE
  5
9C8
  8
2-7
 10
2.5682794183729212
 20
1.8115175227032749
 30
0.0
 11
1.94427939840492
 21
1.8115175227032749
 31
0.0
  0
LINE
  5
9C9
  8
2-7
 10
2.7016157506664591
 20
3.3863207227032759
 30
0.0
 11
0.5835054466664588
 21
3.3863207227032759
 31
0.0
  0
LINE
  5
9CA
  8
2-7
 10
2.5682794183729212
 20
1.8115175227032749
 30
0.0
 11
2.5682794183729212
 21
3.3863207227032759
 31
0.0
  0
LINE
  5
9CB
  8
2-7
 10
2.7016157506664591
 20
3.3863207227032759
 30
0.0
 11
2.7016157506664591
 21
4.1831711419032764
 31
0.0
  0
LINE
  5
9CC
  8
2-7
 10
1.94427939840492
 20
1.8115175227032749
 30
0.0
 11
1.94427939840492
 21
3.093013626703276
 31
0.0
  0
ARC
  5
9CD
  8
2-7
 10
1.6425605986664591
 20
3.1135188767032749
 30
0.0
 40
0.2567257299999997
 50
184.5812200852769
 51
355.41877991472307
  0
LINE
  5
9CE
  8
2-7
 10
1.9686591826706981
 20
3.3725411947032762
 30
0.0
 11
1.316462014662219
 21
3.3725411947032762
 31
0.0
  0
LINE
  5
9CF
  8
2-7
 10
1.3243360306622189
 20
3.0930136267032751
 30
0.0
 11
1.9607851666706979
 21
3.093013626703276
 31
0.0
  0
LINE
  5
9D0
  8
2-7
 10
1.9607851666706979
 20
3.093013626703276
 30
0.0
 11
1.9607851666706979
 21
3.3725411947032762
 31
0.0
  0
LINE
  5
9D1
  8
2-7
 10
1.9686591826706981
 20
3.3725411947032762
 30
0.0
 11
1.9686591826706981
 21
3.3863207227032759
 31
0.0
  0
LINE
  5
9D2
  8
2-7
 10
1.8016728826685791
 20
3.093013626703276
 30
0.0
 11
1.8016728826685791
 21
3.3725411947032762
 31
0.0
  0
LINE
  5
9D3
  8
2-7
 10
1.4834483146643389
 20
3.093013626703276
 30
0.0
 11
1.4834483146643389
 21
3.3725411947032762
 31
0.0
  0
LINE
  5
9D4
  8
2-7
 10
1.3243360306622189
 20
3.0930136267032751
 30
0.0
 11
1.3243360306622189
 21
3.3725411947032762
 31
0.0
  0
LINE
  5
9D5
  8
2-7
 10
1.316462014662219
 20
3.3725411947032762
 30
0.0
 11
1.316462014662219
 21
3.3863207227032759
 31
0.0
  0
LINE
  5
9D6
  8
2-7
 10
0.5835054466664588
 20
3.3863207227032759
 30
0.0
 11
0.5835054466664588
 21
4.1831711419032764
 31
0.0
  0
LINE
  5
9D7
  8
2-7
  6
HIDDEN
 10
2.4216162504112808
 20
1.8115175227032749
 30
0.0
 11
2.4216162504112808
 21
3.3863207227032759
 31
0.0
  0
LINE
  5
9D8
  8
2-7
  6
HIDDEN
 10
3.0456162703792811
 20
1.8115175227032749
 30
0.0
 11
3.0456162703792811
 21
3.3863207227032759
 31
0.0
  0
LINE
  5
9D9
  8
2-7
 10
3.0456162703792811
 20
1.8115175227032749
 30
0.0
 11
2.4216162504112808
 21
1.8115175227032749
 31
0.0
  0
CIRCLE
  5
9ED
  8
2-7
  6
HIDDEN
 10
2.7336162603952801
 20
17.935757217314919
 30
0.0
 40
0.11811024
  0
CIRCLE
  5
9EE
  8
2-7
 10
2.7336162603952801
 20
17.935757217314919
 30
0.0
 40
0.0984252
  0
CIRCLE
  5
9EF
  8
2-7
  6
HIDDEN
 10
1.0288917963952839
 20
14.98308783276129
 30
0.0
 40
0.11811024
  0
CIRCLE
  5
9F0
  8
2-7
 10
1.0288917963952839
 20
14.98308783276129
 30
0.0
 40
0.0984252
  0
CIRCLE
  5
9F1
  8
2-7
  6
HIDDEN
 10
4.4383407243952826
 20
14.98308783276129
 30
0.0
 40
0.11811024
  0
CIRCLE
  5
9F2
  8
2-7
 10
4.4383407243952826
 20
14.98308783276129
 30
0.0
 40
0.0984252
  0
CIRCLE
  5
9F3
  8
2-7
 10
2.7336162603952809
 20
15.967310960945831
 30
0.0
 40
1.0826772
  0
LINE
  5
9F5
  8
2-7
  6
HIDDEN
 10
3.8162934603952809
 20
7.2052184827032777
 30
0.0
 11
1.6509390603952809
 21
7.2052184827032777
 31
0.0
  0
LINE
  5
9F6
  8
2-7
  6
HIDDEN
 10
1.6509390603952809
 20
7.2052184827032777
 30
0.0
 11
1.6509390603952809
 21
7.3233287227032777
 31
0.0
  0
LINE
  5
9F8
  8
2-7
  6
HIDDEN
 10
3.8162934603952809
 20
7.2052184827032777
 30
0.0
 11
3.8162934603952809
 21
7.3233287227032777
 31
0.0
  0
LINE
  5
9FC
  8
2-7
  6
HIDDEN
 10
4.5564509643952826
 20
7.3233287227032768
 30
0.0
 11
4.5564509643952844
 21
6.8902578427032779
 31
0.0
  0
LINE
  5
9FD
  8
2-7
  6
HIDDEN
 10
4.5367659243952829
 20
7.3233287227032768
 30
0.0
 11
4.536765924395282
 21
6.8508877627032767
 31
0.0
  0
LINE
  5
A00
  8
2-7
  6
HIDDEN
 10
4.3399155243952832
 20
7.3233287227032768
 30
0.0
 11
4.3399155243952841
 21
6.8508877627032767
 31
0.0
  0
LINE
  5
A01
  8
2-7
  6
HIDDEN
 10
4.3202304843952826
 20
7.3233287227032768
 30
0.0
 11
4.3202304843952808
 21
6.890257842703277
 31
0.0
  0
LINE
  5
A02
  8
2-7
  6
HIDDEN
 10
4.3399155243952841
 20
6.8508877627032767
 30
0.0
 11
4.4383407243952826
 21
6.7784975941480994
 31
0.0
  0
LINE
  5
A03
  8
2-7
  6
HIDDEN
 10
4.536765924395282
 20
6.8508877627032767
 30
0.0
 11
4.4383407243952826
 21
6.7784975941480994
 31
0.0
  0
LINE
  5
A04
  8
2-7
  6
HIDDEN
 10
4.3202304843952808
 20
6.890257842703277
 30
0.0
 11
4.5564509643952844
 21
6.8902578427032779
 31
0.0
  0
LINE
  5
A05
  8
2-7
  6
HIDDEN
 10
1.1470020363952791
 20
6.890257842703277
 30
0.0
 11
0.9107815563952774
 21
6.8902578427032779
 31
0.0
  0
LINE
  5
A06
  8
2-7
  6
HIDDEN
 10
1.1273169963952769
 20
6.8508877627032767
 30
0.0
 11
1.0288917963952771
 21
6.7784975941480994
 31
0.0
  0
LINE
  5
A07
  8
2-7
  6
HIDDEN
 10
1.1470020363952771
 20
7.3233287227032768
 30
0.0
 11
1.1470020363952791
 21
6.890257842703277
 31
0.0
  0
LINE
  5
A08
  8
2-7
  6
HIDDEN
 10
1.127316996395278
 20
7.3233287227032768
 30
0.0
 11
1.1273169963952769
 21
6.8508877627032767
 31
0.0
  0
LINE
  5
A09
  8
2-7
  6
HIDDEN
 10
0.9304665963952779
 20
7.3233287227032768
 30
0.0
 11
0.9304665963952786
 21
6.8508877627032767
 31
0.0
  0
LINE
  5
A0A
  8
2-7
  6
HIDDEN
 10
0.910781556395278
 20
7.3233287227032768
 30
0.0
 11
0.9107815563952774
 21
6.8902578427032779
 31
0.0
  0
LINE
  5
A0B
  8
2-7
  6
HIDDEN
 10
0.9304665963952786
 20
6.8508877627032767
 30
0.0
 11
1.0288917963952771
 21
6.7784975941480994
 31
0.0
  0
LINE
  5
A0C
  8
2-7
  6
HIDDEN
 10
2.6351910603952802
 20
6.8508877627032767
 30
0.0
 11
2.7336162603952801
 21
6.7784975941480994
 31
0.0
  0
LINE
  5
A0D
  8
2-7
  6
HIDDEN
 10
2.851726500395281
 20
6.890257842703277
 30
0.0
 11
2.6155060203952791
 21
6.8902578427032779
 31
0.0
  0
LINE
  5
A0E
  8
2-7
  6
HIDDEN
 10
2.61550602039528
 20
7.3233287227032768
 30
0.0
 11
2.6155060203952791
 21
6.8902578427032779
 31
0.0
  0
LINE
  5
A0F
  8
2-7
  6
HIDDEN
 10
2.6351910603952802
 20
7.3233287227032768
 30
0.0
 11
2.6351910603952802
 21
6.8508877627032767
 31
0.0
  0
LINE
  5
A10
  8
2-7
  6
HIDDEN
 10
2.8320414603952799
 20
7.3233287227032768
 30
0.0
 11
2.832041460395279
 21
6.8508877627032767
 31
0.0
  0
LINE
  5
A11
  8
2-7
  6
HIDDEN
 10
2.8517265003952801
 20
7.3233287227032768
 30
0.0
 11
2.851726500395281
 21
6.890257842703277
 31
0.0
  0
LINE
  5
A12
  8
2-7
  6
HIDDEN
 10
2.832041460395279
 20
6.8508877627032767
 30
0.0
 11
2.7336162603952801
 21
6.7784975941480994
 31
0.0
  0
LINE
  5
A26
  8
DRIVE_INPUT
 10
2.930466660395282
 20
16.48214156130317
 30
0.0
 11
2.930466660395282
 21
15.452480360588501
 31
0.0
  0
LINE
  5
A27
  8
DRIVE_INPUT
 10
2.5367658603952821
 20
15.452480360588501
 30
0.0
 11
2.5367658603952821
 21
16.48214156130317
 31
0.0
  0
CIRCLE
  5
A2B
  8
DRIVE_INPUT
 10
2.7336162603952809
 20
15.967310960945831
 30
0.0
 40
0.5511811200000001
  0
LINE
  5
A2F
  8
ADAPTER
  6
HIDDEN
 10
3.8143249563952821
 20
7.3233287227032768
 30
0.0
 11
3.8143249563952821
 21
7.2170295067032759
 31
0.0
  0
LINE
  5
A30
  8
ADAPTER
  6
HIDDEN
 10
3.8143249563952821
 20
7.2170295067032759
 30
0.0
 11
1.65290756439528
 21
7.217029506703275
 31
0.0
  0
LINE
  5
A31
  8
ADAPTER
  6
HIDDEN
 10
1.65290756439528
 20
7.3233287227032768
 30
0.0
 11
1.65290756439528
 21
7.217029506703275
 31
0.0
  0
LINE
  5
A33
  8
ADAPTER
  6
HIDDEN
 10
3.5210178603952809
 20
7.7233287355032774
 30
0.0
 11
3.5210178603952809
 21
7.2170295067032759
 31
0.0
  0
LINE
  5
A34
  8
ADAPTER
  6
HIDDEN
 10
1.946214660395281
 20
7.7233287355032774
 30
0.0
 11
1.946214660395281
 21
7.2170295067032759
 31
0.0
  0
LINE
  5
A35
  8
ADAPTER
 10
1.27351698287321
 20
16.006681040945828
 30
0.0
 11
1.6536249259805951
 21
16.006681040945828
 31
0.0
  0
LINE
  5
A36
  8
ADAPTER
 10
3.8136075948099668
 20
16.006681040945828
 30
0.0
 11
4.6328289195952816
 21
16.006681040945828
 31
0.0
  0
LINE
  5
A37
  8
ADAPTER
 10
3.8136075948099668
 20
15.92794088094583
 30
0.0
 11
4.6328289195952816
 21
15.92794088094583
 31
0.0
  0
LINE
  5
A38
  8
ADAPTER
 10
1.27351698287321
 20
15.92794088094583
 30
0.0
 11
1.6536249259805951
 21
15.92794088094583
 31
0.0
  0
LINE
  5
A39
  8
ADAPTER
 10
4.6328289195952816
 20
15.92794088094583
 30
0.0
 11
4.6328289195952816
 21
15.170066840945831
 31
0.0
  0
LINE
  5
A3B
  8
ADAPTER
  6
HIDDEN
 10
1.6536249259805951
 20
8.9297360223405224
 30
0.0
 11
1.2729862923952799
 21
8.9297360223405224
 31
0.0
  0
LINE
  5
A3C
  8
ADAPTER
  6
HIDDEN
 10
3.8143249563952821
 20
8.9297360223405224
 30
0.0
 11
4.6328289195952799
 21
8.9297360223405224
 31
0.0
  0
LINE
  5
A3D
  8
ADAPTER
  6
HIDDEN
 10
1.65290756439528
 20
10.06348629070327
 30
0.0
 11
1.65290756439528
 21
7.7233287355032774
 31
0.0
  0
CIRCLE
  5
A3E
  8
ADAPTER
 10
2.7336162603952809
 20
15.967310960945831
 30
0.0
 40
1.460629967999999
  0
CIRCLE
  5
A3F
  8
ADAPTER
 10
2.7336162603952809
 20
15.967310960945831
 30
0.0
 40
1.080708695999999
  0
CIRCLE
  5
A41
  8
ADAPTER
 10
2.7336162603952809
 20
15.967310960945831
 30
0.0
 40
0.7874016000000002
  0
ARC
  5
A42
  8
ADAPTER
 10
2.7336162603952809
 20
15.967310960945831
 30
0.0
 40
2.125984320000001
 50
332.13779732510727
 51
327.62722758350441
  0
CIRCLE
  5
A43
  8
ADAPTER
 10
2.7336162603952801
 20
17.935757217314919
 30
0.0
 40
0.12795276
  0
CIRCLE
  5
A44
  8
ADAPTER
 10
1.0288917963952839
 20
14.98308783276129
 30
0.0
 40
0.12795276
  0
CIRCLE
  5
A45
  8
ADAPTER
  6
HIDDEN
 10
4.4383407243952826
 20
14.98308783276129
 30
0.0
 40
0.12795276
  0
LINE
  5
A46
  8
ADAPTER
  6
HIDDEN
 10
1.1568445563952841
 20
7.7233287355032774
 30
0.0
 11
1.1568445563952841
 21
7.3233287227032768
 31
0.0
  0
LINE
  5
A47
  8
ADAPTER
  6
HIDDEN
 10
0.9009390363952846
 20
7.7233287355032774
 30
0.0
 11
0.9009390363952846
 21
7.3233287227032768
 31
0.0
  0
LINE
  5
A48
  8
ADAPTER
  6
HIDDEN
 10
4.5662934843952794
 20
7.7233287355032774
 30
0.0
 11
4.5662934843952794
 21
7.3233287227032768
 31
0.0
  0
LINE
  5
A49
  8
ADAPTER
  6
HIDDEN
 10
4.3103879643952778
 20
7.7233287355032774
 30
0.0
 11
4.3103879643952778
 21
7.3233287227032768
 31
0.0
  0
LINE
  5
A4C
  8
ADAPTER
  6
HIDDEN
 10
2.6056635003952811
 20
7.7233287355032774
 30
0.0
 11
2.6056635003952811
 21
7.3233287227032768
 31
0.0
  0
LINE
  5
A4D
  8
ADAPTER
  6
HIDDEN
 10
2.8615690203952808
 20
7.7233287355032774
 30
0.0
 11
2.8615690203952808
 21
7.3233287227032768
 31
0.0
  0
LINE
  5
C7A
  8
DRIVE_TANG
  6
HIDDEN
 10
2.9304666603952811
 20
7.8189980299032751
 30
0.0
 11
2.9304666603952811
 21
7.4020688827032757
 31
0.0
  0
LINE
  5
C7B
  8
DRIVE_TANG
  6
HIDDEN
 10
2.9304666603952811
 20
7.4020688827032757
 30
0.0
 11
2.5367658603952812
 21
7.4020688827032757
 31
0.0
  0
LINE
  5
C7C
  8
DRIVE_TANG
  6
HIDDEN
 10
2.5367658603952812
 20
7.4020688827032757
 30
0.0
 11
2.5367658603952812
 21
7.8189980299032751
 31
0.0
  0
LINE
  5
C7D
  8
DRIVE_TANG
  6
HIDDEN
 10
2.9304666603952811
 20
7.8189980299032751
 30
0.0
 11
3.2761359627952809
 21
7.818998029903276
 31
0.0
  0
LINE
  5
D11
  8
ADAPTER
 10
4.8596005803952806
 20
7.7233287355032774
 30
0.0
 11
4.8596005803952806
 21
7.3233287227032768
 31
0.0
  0
TEXT
  5
DE2
  8
0
 10
-1.0564043136735459
 20
11.555577782298529
 30
0.0
 40
0.125
  1
THE ADAPTER SHOWN IN THIS DRAWING IS ONLY TO ILLUSTRATE A TYPICAL ADAPTER
  7
ARIAL
  0
ENDSEC
  0
EOF
